ISO-10303-21;
HEADER;
/* Generated by software containing ST-Developer
 * from STEP Tools, Inc. (www.steptools.com) 
 */

FILE_DESCRIPTION(
/* description */ (''),
/* implementation_level */ '2;1');

FILE_NAME(
/* name */ '/Users/laurynas/Desktop/XYIND - STEP/XYIND-SEAL-SM1.step',
/* time_stamp */ '2022-05-12T11:28:19+03:00',
/* author */ (''),
/* organization */ (''),
/* preprocessor_version */ 'ST-DEVELOPER v18.1',
/* originating_system */ 'Autodesk Translation Framework v10.14.0.1471',

/* authorisation */ '');

FILE_SCHEMA (('AUTOMOTIVE_DESIGN { 1 0 10303 214 3 1 1 }'));
ENDSEC;

DATA;
#10=MECHANICAL_DESIGN_GEOMETRIC_PRESENTATION_REPRESENTATION('',(#17),#470);
#11=ITEM_DEFINED_TRANSFORMATION($,$,#264,#303);
#12=(
REPRESENTATION_RELATIONSHIP($,$,#481,#480)
REPRESENTATION_RELATIONSHIP_WITH_TRANSFORMATION(#11)
SHAPE_REPRESENTATION_RELATIONSHIP()
);
#13=CONTEXT_DEPENDENT_SHAPE_REPRESENTATION(#12,#479);
#14=NEXT_ASSEMBLY_USAGE_OCCURRENCE('XYIND-09-02:1','XYIND-09-02:1',
'XYIND-09-02:1',#483,#484,'XYIND-09-02:1');
#15=SHAPE_REPRESENTATION_RELATIONSHIP('SRR','None',#481,#16);
#16=ADVANCED_BREP_SHAPE_REPRESENTATION('',(#18),#469);
#17=STYLED_ITEM('',(#495),#18);
#18=MANIFOLD_SOLID_BREP('Body1',#250);
#19=FACE_BOUND('',#82,.T.);
#20=FACE_BOUND('',#85,.T.);
#21=FACE_BOUND('',#88,.T.);
#22=FACE_BOUND('',#91,.T.);
#23=FACE_BOUND('',#94,.T.);
#24=FACE_BOUND('',#97,.T.);
#25=FACE_BOUND('',#100,.T.);
#26=PLANE('',#279);
#27=PLANE('',#283);
#28=PLANE('',#286);
#29=PLANE('',#290);
#30=PLANE('',#294);
#31=PLANE('',#298);
#32=PLANE('',#302);
#33=CONICAL_SURFACE('',#273,15.,0.78539816339745);
#34=LINE('',#409,#43);
#35=LINE('',#416,#44);
#36=LINE('',#421,#45);
#37=LINE('',#429,#46);
#38=LINE('',#434,#47);
#39=LINE('',#441,#48);
#40=LINE('',#448,#49);
#41=LINE('',#455,#50);
#42=LINE('',#462,#51);
#43=VECTOR('',#322,14.35);
#44=VECTOR('',#329,15.);
#45=VECTOR('',#336,16.);
#46=VECTOR('',#347,11.5);
#47=VECTOR('',#354,14.35);
#48=VECTOR('',#363,11.5);
#49=VECTOR('',#372,10.5);
#50=VECTOR('',#381,13.15);
#51=VECTOR('',#390,12.5);
#52=CYLINDRICAL_SURFACE('',#271,14.35);
#53=CYLINDRICAL_SURFACE('',#277,16.);
#54=CYLINDRICAL_SURFACE('',#281,11.5);
#55=CYLINDRICAL_SURFACE('',#284,14.35);
#56=CYLINDRICAL_SURFACE('',#288,11.5);
#57=CYLINDRICAL_SURFACE('',#292,10.5);
#58=CYLINDRICAL_SURFACE('',#296,13.15);
#59=CYLINDRICAL_SURFACE('',#300,12.5);
#60=FACE_OUTER_BOUND('',#77,.T.);
#61=FACE_OUTER_BOUND('',#78,.T.);
#62=FACE_OUTER_BOUND('',#79,.T.);
#63=FACE_OUTER_BOUND('',#80,.T.);
#64=FACE_OUTER_BOUND('',#81,.T.);
#65=FACE_OUTER_BOUND('',#83,.T.);
#66=FACE_OUTER_BOUND('',#84,.T.);
#67=FACE_OUTER_BOUND('',#86,.T.);
#68=FACE_OUTER_BOUND('',#87,.T.);
#69=FACE_OUTER_BOUND('',#89,.T.);
#70=FACE_OUTER_BOUND('',#90,.T.);
#71=FACE_OUTER_BOUND('',#92,.T.);
#72=FACE_OUTER_BOUND('',#93,.T.);
#73=FACE_OUTER_BOUND('',#95,.T.);
#74=FACE_OUTER_BOUND('',#96,.T.);
#75=FACE_OUTER_BOUND('',#98,.T.);
#76=FACE_OUTER_BOUND('',#99,.T.);
#77=EDGE_LOOP('',(#172,#173,#174,#175,#176,#177));
#78=EDGE_LOOP('',(#178,#179,#180,#181,#182));
#79=EDGE_LOOP('',(#183,#184,#185,#186,#187));
#80=EDGE_LOOP('',(#188,#189,#190,#191,#192));
#81=EDGE_LOOP('',(#193));
#82=EDGE_LOOP('',(#194));
#83=EDGE_LOOP('',(#195,#196,#197,#198));
#84=EDGE_LOOP('',(#199));
#85=EDGE_LOOP('',(#200));
#86=EDGE_LOOP('',(#201,#202,#203,#204,#205));
#87=EDGE_LOOP('',(#206));
#88=EDGE_LOOP('',(#207));
#89=EDGE_LOOP('',(#208,#209,#210,#211));
#90=EDGE_LOOP('',(#212));
#91=EDGE_LOOP('',(#213));
#92=EDGE_LOOP('',(#214,#215,#216,#217));
#93=EDGE_LOOP('',(#218));
#94=EDGE_LOOP('',(#219));
#95=EDGE_LOOP('',(#220,#221,#222,#223));
#96=EDGE_LOOP('',(#224));
#97=EDGE_LOOP('',(#225));
#98=EDGE_LOOP('',(#226,#227,#228,#229));
#99=EDGE_LOOP('',(#230));
#100=EDGE_LOOP('',(#231));
#101=CIRCLE('',#266,14.35);
#102=CIRCLE('',#267,14.35);
#103=CIRCLE('',#268,1.75000000000001);
#104=CIRCLE('',#269,14.35);
#105=CIRCLE('',#270,14.35);
#106=CIRCLE('',#272,14.35);
#107=CIRCLE('',#274,16.);
#108=CIRCLE('',#275,14.);
#109=CIRCLE('',#276,16.);
#110=CIRCLE('',#278,16.);
#111=CIRCLE('',#280,11.5);
#112=CIRCLE('',#282,11.5);
#113=CIRCLE('',#285,14.35);
#114=CIRCLE('',#287,11.5);
#115=CIRCLE('',#289,11.5);
#116=CIRCLE('',#291,10.5);
#117=CIRCLE('',#293,10.5);
#118=CIRCLE('',#295,13.15);
#119=CIRCLE('',#297,13.15);
#120=CIRCLE('',#299,12.5);
#121=CIRCLE('',#301,12.5);
#122=VERTEX_POINT('',#398);
#123=VERTEX_POINT('',#399);
#124=VERTEX_POINT('',#402);
#125=VERTEX_POINT('',#404);
#126=VERTEX_POINT('',#408);
#127=VERTEX_POINT('',#412);
#128=VERTEX_POINT('',#413);
#129=VERTEX_POINT('',#415);
#130=VERTEX_POINT('',#420);
#131=VERTEX_POINT('',#424);
#132=VERTEX_POINT('',#427);
#133=VERTEX_POINT('',#432);
#134=VERTEX_POINT('',#436);
#135=VERTEX_POINT('',#439);
#136=VERTEX_POINT('',#443);
#137=VERTEX_POINT('',#446);
#138=VERTEX_POINT('',#450);
#139=VERTEX_POINT('',#453);
#140=VERTEX_POINT('',#457);
#141=VERTEX_POINT('',#460);
#142=EDGE_CURVE('',#122,#123,#101,.T.);
#143=EDGE_CURVE('',#123,#122,#102,.T.);
#144=EDGE_CURVE('',#123,#124,#103,.T.);
#145=EDGE_CURVE('',#125,#124,#104,.T.);
#146=EDGE_CURVE('',#124,#125,#105,.T.);
#147=EDGE_CURVE('',#125,#126,#34,.T.);
#148=EDGE_CURVE('',#126,#126,#106,.F.);
#149=EDGE_CURVE('',#127,#128,#107,.T.);
#150=EDGE_CURVE('',#128,#129,#35,.T.);
#151=EDGE_CURVE('',#129,#129,#108,.T.);
#152=EDGE_CURVE('',#128,#127,#109,.T.);
#153=EDGE_CURVE('',#127,#130,#36,.T.);
#154=EDGE_CURVE('',#130,#130,#110,.T.);
#155=EDGE_CURVE('',#131,#131,#111,.T.);
#156=EDGE_CURVE('',#132,#132,#112,.T.);
#157=EDGE_CURVE('',#132,#131,#37,.T.);
#158=EDGE_CURVE('',#133,#133,#113,.T.);
#159=EDGE_CURVE('',#133,#122,#38,.T.);
#160=EDGE_CURVE('',#134,#134,#114,.T.);
#161=EDGE_CURVE('',#135,#135,#115,.T.);
#162=EDGE_CURVE('',#135,#134,#39,.T.);
#163=EDGE_CURVE('',#136,#136,#116,.T.);
#164=EDGE_CURVE('',#137,#137,#117,.T.);
#165=EDGE_CURVE('',#137,#136,#40,.T.);
#166=EDGE_CURVE('',#138,#138,#118,.T.);
#167=EDGE_CURVE('',#139,#139,#119,.T.);
#168=EDGE_CURVE('',#139,#138,#41,.T.);
#169=EDGE_CURVE('',#140,#140,#120,.T.);
#170=EDGE_CURVE('',#141,#141,#121,.T.);
#171=EDGE_CURVE('',#141,#140,#42,.T.);
#172=ORIENTED_EDGE('',*,*,#142,.F.);
#173=ORIENTED_EDGE('',*,*,#143,.F.);
#174=ORIENTED_EDGE('',*,*,#144,.T.);
#175=ORIENTED_EDGE('',*,*,#145,.F.);
#176=ORIENTED_EDGE('',*,*,#146,.F.);
#177=ORIENTED_EDGE('',*,*,#144,.F.);
#178=ORIENTED_EDGE('',*,*,#145,.T.);
#179=ORIENTED_EDGE('',*,*,#146,.T.);
#180=ORIENTED_EDGE('',*,*,#147,.T.);
#181=ORIENTED_EDGE('',*,*,#148,.T.);
#182=ORIENTED_EDGE('',*,*,#147,.F.);
#183=ORIENTED_EDGE('',*,*,#149,.T.);
#184=ORIENTED_EDGE('',*,*,#150,.T.);
#185=ORIENTED_EDGE('',*,*,#151,.T.);
#186=ORIENTED_EDGE('',*,*,#150,.F.);
#187=ORIENTED_EDGE('',*,*,#152,.T.);
#188=ORIENTED_EDGE('',*,*,#149,.F.);
#189=ORIENTED_EDGE('',*,*,#153,.T.);
#190=ORIENTED_EDGE('',*,*,#154,.T.);
#191=ORIENTED_EDGE('',*,*,#153,.F.);
#192=ORIENTED_EDGE('',*,*,#152,.F.);
#193=ORIENTED_EDGE('',*,*,#151,.F.);
#194=ORIENTED_EDGE('',*,*,#155,.F.);
#195=ORIENTED_EDGE('',*,*,#156,.F.);
#196=ORIENTED_EDGE('',*,*,#157,.T.);
#197=ORIENTED_EDGE('',*,*,#155,.T.);
#198=ORIENTED_EDGE('',*,*,#157,.F.);
#199=ORIENTED_EDGE('',*,*,#148,.F.);
#200=ORIENTED_EDGE('',*,*,#156,.T.);
#201=ORIENTED_EDGE('',*,*,#158,.F.);
#202=ORIENTED_EDGE('',*,*,#159,.T.);
#203=ORIENTED_EDGE('',*,*,#142,.T.);
#204=ORIENTED_EDGE('',*,*,#143,.T.);
#205=ORIENTED_EDGE('',*,*,#159,.F.);
#206=ORIENTED_EDGE('',*,*,#158,.T.);
#207=ORIENTED_EDGE('',*,*,#160,.F.);
#208=ORIENTED_EDGE('',*,*,#161,.F.);
#209=ORIENTED_EDGE('',*,*,#162,.T.);
#210=ORIENTED_EDGE('',*,*,#160,.T.);
#211=ORIENTED_EDGE('',*,*,#162,.F.);
#212=ORIENTED_EDGE('',*,*,#161,.T.);
#213=ORIENTED_EDGE('',*,*,#163,.F.);
#214=ORIENTED_EDGE('',*,*,#164,.F.);
#215=ORIENTED_EDGE('',*,*,#165,.T.);
#216=ORIENTED_EDGE('',*,*,#163,.T.);
#217=ORIENTED_EDGE('',*,*,#165,.F.);
#218=ORIENTED_EDGE('',*,*,#166,.F.);
#219=ORIENTED_EDGE('',*,*,#164,.T.);
#220=ORIENTED_EDGE('',*,*,#167,.F.);
#221=ORIENTED_EDGE('',*,*,#168,.T.);
#222=ORIENTED_EDGE('',*,*,#166,.T.);
#223=ORIENTED_EDGE('',*,*,#168,.F.);
#224=ORIENTED_EDGE('',*,*,#167,.T.);
#225=ORIENTED_EDGE('',*,*,#169,.F.);
#226=ORIENTED_EDGE('',*,*,#170,.F.);
#227=ORIENTED_EDGE('',*,*,#171,.T.);
#228=ORIENTED_EDGE('',*,*,#169,.T.);
#229=ORIENTED_EDGE('',*,*,#171,.F.);
#230=ORIENTED_EDGE('',*,*,#154,.F.);
#231=ORIENTED_EDGE('',*,*,#170,.T.);
#232=TOROIDAL_SURFACE('',#265,12.75,1.75000000000001);
#233=ADVANCED_FACE('',(#60),#232,.T.);
#234=ADVANCED_FACE('',(#61),#52,.F.);
#235=ADVANCED_FACE('',(#62),#33,.T.);
#236=ADVANCED_FACE('',(#63),#53,.T.);
#237=ADVANCED_FACE('',(#64,#19),#26,.T.);
#238=ADVANCED_FACE('',(#65),#54,.F.);
#239=ADVANCED_FACE('',(#66,#20),#27,.T.);
#240=ADVANCED_FACE('',(#67),#55,.F.);
#241=ADVANCED_FACE('',(#68,#21),#28,.T.);
#242=ADVANCED_FACE('',(#69),#56,.F.);
#243=ADVANCED_FACE('',(#70,#22),#29,.T.);
#244=ADVANCED_FACE('',(#71),#57,.F.);
#245=ADVANCED_FACE('',(#72,#23),#30,.T.);
#246=ADVANCED_FACE('',(#73),#58,.T.);
#247=ADVANCED_FACE('',(#74,#24),#31,.T.);
#248=ADVANCED_FACE('',(#75),#59,.T.);
#249=ADVANCED_FACE('',(#76,#25),#32,.T.);
#250=CLOSED_SHELL('',(#233,#234,#235,#236,#237,#238,#239,#240,#241,#242,
#243,#244,#245,#246,#247,#248,#249));
#251=DERIVED_UNIT_ELEMENT(#253,1.);
#252=DERIVED_UNIT_ELEMENT(#472,-3.);
#253=(
MASS_UNIT()
NAMED_UNIT(*)
SI_UNIT(.KILO.,.GRAM.)
);
#254=DERIVED_UNIT((#251,#252));
#255=MEASURE_REPRESENTATION_ITEM('density measure',
POSITIVE_RATIO_MEASURE(2700.),#254);
#256=PROPERTY_DEFINITION_REPRESENTATION(#261,#258);
#257=PROPERTY_DEFINITION_REPRESENTATION(#262,#259);
#258=REPRESENTATION('material name',(#260),#469);
#259=REPRESENTATION('density',(#255),#469);
#260=DESCRIPTIVE_REPRESENTATION_ITEM('Aluminum 6061','Aluminum 6061');
#261=PROPERTY_DEFINITION('material property','material name',#484);
#262=PROPERTY_DEFINITION('material property','density of part',#484);
#263=AXIS2_PLACEMENT_3D('placement',#395,#304,#305);
#264=AXIS2_PLACEMENT_3D('placement',#396,#306,#307);
#265=AXIS2_PLACEMENT_3D('',#397,#308,#309);
#266=AXIS2_PLACEMENT_3D('',#400,#310,#311);
#267=AXIS2_PLACEMENT_3D('',#401,#312,#313);
#268=AXIS2_PLACEMENT_3D('',#403,#314,#315);
#269=AXIS2_PLACEMENT_3D('',#405,#316,#317);
#270=AXIS2_PLACEMENT_3D('',#406,#318,#319);
#271=AXIS2_PLACEMENT_3D('',#407,#320,#321);
#272=AXIS2_PLACEMENT_3D('',#410,#323,#324);
#273=AXIS2_PLACEMENT_3D('',#411,#325,#326);
#274=AXIS2_PLACEMENT_3D('',#414,#327,#328);
#275=AXIS2_PLACEMENT_3D('',#417,#330,#331);
#276=AXIS2_PLACEMENT_3D('',#418,#332,#333);
#277=AXIS2_PLACEMENT_3D('',#419,#334,#335);
#278=AXIS2_PLACEMENT_3D('',#422,#337,#338);
#279=AXIS2_PLACEMENT_3D('',#423,#339,#340);
#280=AXIS2_PLACEMENT_3D('',#425,#341,#342);
#281=AXIS2_PLACEMENT_3D('',#426,#343,#344);
#282=AXIS2_PLACEMENT_3D('',#428,#345,#346);
#283=AXIS2_PLACEMENT_3D('',#430,#348,#349);
#284=AXIS2_PLACEMENT_3D('',#431,#350,#351);
#285=AXIS2_PLACEMENT_3D('',#433,#352,#353);
#286=AXIS2_PLACEMENT_3D('',#435,#355,#356);
#287=AXIS2_PLACEMENT_3D('',#437,#357,#358);
#288=AXIS2_PLACEMENT_3D('',#438,#359,#360);
#289=AXIS2_PLACEMENT_3D('',#440,#361,#362);
#290=AXIS2_PLACEMENT_3D('',#442,#364,#365);
#291=AXIS2_PLACEMENT_3D('',#444,#366,#367);
#292=AXIS2_PLACEMENT_3D('',#445,#368,#369);
#293=AXIS2_PLACEMENT_3D('',#447,#370,#371);
#294=AXIS2_PLACEMENT_3D('',#449,#373,#374);
#295=AXIS2_PLACEMENT_3D('',#451,#375,#376);
#296=AXIS2_PLACEMENT_3D('',#452,#377,#378);
#297=AXIS2_PLACEMENT_3D('',#454,#379,#380);
#298=AXIS2_PLACEMENT_3D('',#456,#382,#383);
#299=AXIS2_PLACEMENT_3D('',#458,#384,#385);
#300=AXIS2_PLACEMENT_3D('',#459,#386,#387);
#301=AXIS2_PLACEMENT_3D('',#461,#388,#389);
#302=AXIS2_PLACEMENT_3D('',#463,#391,#392);
#303=AXIS2_PLACEMENT_3D('',#464,#393,#394);
#304=DIRECTION('axis',(0.,0.,1.));
#305=DIRECTION('refdir',(1.,0.,0.));
#306=DIRECTION('axis',(0.,0.,1.));
#307=DIRECTION('refdir',(1.,0.,0.));
#308=DIRECTION('center_axis',(1.,0.,0.));
#309=DIRECTION('ref_axis',(0.,0.,-1.));
#310=DIRECTION('center_axis',(1.,0.,0.));
#311=DIRECTION('ref_axis',(0.,1.,0.));
#312=DIRECTION('center_axis',(1.,0.,0.));
#313=DIRECTION('ref_axis',(0.,1.,0.));
#314=DIRECTION('center_axis',(0.,-1.,-1.53134210293125E-16));
#315=DIRECTION('ref_axis',(0.,-1.53134210293125E-16,1.));
#316=DIRECTION('center_axis',(-1.,0.,0.));
#317=DIRECTION('ref_axis',(0.,1.,0.));
#318=DIRECTION('center_axis',(-1.,0.,0.));
#319=DIRECTION('ref_axis',(0.,1.,0.));
#320=DIRECTION('center_axis',(1.,0.,0.));
#321=DIRECTION('ref_axis',(0.,1.,0.));
#322=DIRECTION('',(1.,0.,0.));
#323=DIRECTION('center_axis',(-1.,0.,0.));
#324=DIRECTION('ref_axis',(0.,1.,0.));
#325=DIRECTION('center_axis',(-1.,0.,0.));
#326=DIRECTION('ref_axis',(0.,-1.,0.));
#327=DIRECTION('center_axis',(1.,0.,0.));
#328=DIRECTION('ref_axis',(0.,-1.,0.));
#329=DIRECTION('',(0.707106781186546,-0.707106781186549,8.65956056235495E-17));
#330=DIRECTION('center_axis',(-1.,0.,0.));
#331=DIRECTION('ref_axis',(0.,-1.,0.));
#332=DIRECTION('center_axis',(1.,0.,0.));
#333=DIRECTION('ref_axis',(0.,-1.,0.));
#334=DIRECTION('center_axis',(1.,0.,0.));
#335=DIRECTION('ref_axis',(0.,1.,0.));
#336=DIRECTION('',(-1.,0.,0.));
#337=DIRECTION('center_axis',(1.,0.,0.));
#338=DIRECTION('ref_axis',(0.,0.,-1.));
#339=DIRECTION('center_axis',(1.,0.,0.));
#340=DIRECTION('ref_axis',(0.,0.,-1.));
#341=DIRECTION('center_axis',(1.,0.,0.));
#342=DIRECTION('ref_axis',(0.,0.,-1.));
#343=DIRECTION('center_axis',(1.,0.,0.));
#344=DIRECTION('ref_axis',(0.,1.,0.));
#345=DIRECTION('center_axis',(1.,0.,0.));
#346=DIRECTION('ref_axis',(0.,0.,-1.));
#347=DIRECTION('',(1.,0.,0.));
#348=DIRECTION('center_axis',(-1.,0.,0.));
#349=DIRECTION('ref_axis',(0.,0.,1.));
#350=DIRECTION('center_axis',(1.,0.,0.));
#351=DIRECTION('ref_axis',(0.,1.,0.));
#352=DIRECTION('center_axis',(1.,0.,0.));
#353=DIRECTION('ref_axis',(0.,1.,0.));
#354=DIRECTION('',(1.,0.,0.));
#355=DIRECTION('center_axis',(1.,0.,0.));
#356=DIRECTION('ref_axis',(0.,0.,-1.));
#357=DIRECTION('center_axis',(1.,0.,0.));
#358=DIRECTION('ref_axis',(0.,0.,-1.));
#359=DIRECTION('center_axis',(1.,0.,0.));
#360=DIRECTION('ref_axis',(0.,1.,0.));
#361=DIRECTION('center_axis',(1.,0.,0.));
#362=DIRECTION('ref_axis',(0.,0.,-1.));
#363=DIRECTION('',(1.,0.,0.));
#364=DIRECTION('center_axis',(1.,0.,0.));
#365=DIRECTION('ref_axis',(0.,0.,-1.));
#366=DIRECTION('center_axis',(1.,0.,0.));
#367=DIRECTION('ref_axis',(0.,0.,-1.));
#368=DIRECTION('center_axis',(1.,0.,0.));
#369=DIRECTION('ref_axis',(0.,1.,0.));
#370=DIRECTION('center_axis',(1.,0.,0.));
#371=DIRECTION('ref_axis',(0.,0.,-1.));
#372=DIRECTION('',(1.,0.,0.));
#373=DIRECTION('center_axis',(-1.,0.,0.));
#374=DIRECTION('ref_axis',(0.,0.,1.));
#375=DIRECTION('center_axis',(1.,0.,0.));
#376=DIRECTION('ref_axis',(0.,0.,-1.));
#377=DIRECTION('center_axis',(1.,0.,0.));
#378=DIRECTION('ref_axis',(0.,1.,0.));
#379=DIRECTION('center_axis',(1.,0.,0.));
#380=DIRECTION('ref_axis',(0.,0.,-1.));
#381=DIRECTION('',(-1.,0.,0.));
#382=DIRECTION('center_axis',(1.,0.,0.));
#383=DIRECTION('ref_axis',(0.,0.,-1.));
#384=DIRECTION('center_axis',(1.,0.,0.));
#385=DIRECTION('ref_axis',(0.,0.,-1.));
#386=DIRECTION('center_axis',(1.,0.,0.));
#387=DIRECTION('ref_axis',(0.,1.,0.));
#388=DIRECTION('center_axis',(1.,0.,0.));
#389=DIRECTION('ref_axis',(0.,0.,-1.));
#390=DIRECTION('',(-1.,0.,0.));
#391=DIRECTION('center_axis',(-1.,0.,0.));
#392=DIRECTION('ref_axis',(0.,0.,1.));
#393=DIRECTION('',(1.,4.33680868994177E-19,3.54624996439679E-32));
#394=DIRECTION('',(3.54624996436944E-32,6.30550224943969E-25,-1.));
#395=CARTESIAN_POINT('',(0.,0.,0.));
#396=CARTESIAN_POINT('',(0.,0.,0.));
#397=CARTESIAN_POINT('Origin',(88.6106229026982,17.4588686361338,0.));
#398=CARTESIAN_POINT('',(87.9017505587603,3.10886863613379,-1.75736815677645E-15));
#399=CARTESIAN_POINT('',(87.9017505587603,17.4588686361338,14.35));
#400=CARTESIAN_POINT('Origin',(87.9017505587603,17.4588686361338,0.));
#401=CARTESIAN_POINT('Origin',(87.9017505587603,17.4588686361338,0.));
#402=CARTESIAN_POINT('',(89.3194952466362,17.4588686361338,14.35));
#403=CARTESIAN_POINT('Origin',(88.6106229026982,17.4588686361338,12.75));
#404=CARTESIAN_POINT('',(89.3194952466361,3.10886863613379,1.75736815677645E-15));
#405=CARTESIAN_POINT('Origin',(89.3194952466361,17.4588686361338,0.));
#406=CARTESIAN_POINT('Origin',(89.3194952466361,17.4588686361338,0.));
#407=CARTESIAN_POINT('Origin',(88.6106229026981,17.4588686361338,0.));
#408=CARTESIAN_POINT('',(90.6106229026981,3.10886863613382,1.75736815677645E-15));
#409=CARTESIAN_POINT('',(88.6106229026981,3.1088686361338,-1.75736815677645E-15));
#410=CARTESIAN_POINT('Origin',(90.6106229026981,17.4588686361338,0.));
#411=CARTESIAN_POINT('Origin',(92.6106229026981,17.4588686361338,0.));
#412=CARTESIAN_POINT('',(91.6106229026981,1.45886863613382,-1.95943487863577E-15));
#413=CARTESIAN_POINT('',(91.6106229026981,33.4588686361338,-1.95943487863577E-15));
#414=CARTESIAN_POINT('Origin',(91.6106229026981,17.4588686361338,0.));
#415=CARTESIAN_POINT('',(93.6106229026981,31.4588686361338,-1.71450551880629E-15));
#416=CARTESIAN_POINT('',(92.6106229026981,32.4588686361338,-1.83697019872103E-15));
#417=CARTESIAN_POINT('Origin',(93.6106229026981,17.4588686361338,0.));
#418=CARTESIAN_POINT('Origin',(91.6106229026981,17.4588686361338,0.));
#419=CARTESIAN_POINT('Origin',(83.6106229026981,17.4588686361338,0.));
#420=CARTESIAN_POINT('',(73.6106229026981,1.45886863613382,-1.95943487863577E-15));
#421=CARTESIAN_POINT('',(83.6106229026981,1.4588686361338,-1.95943487863577E-15));
#422=CARTESIAN_POINT('Origin',(73.6106229026981,17.4588686361338,0.));
#423=CARTESIAN_POINT('Origin',(93.6106229026981,28.9588686361338,0.));
#424=CARTESIAN_POINT('',(93.6106229026981,5.95886863613382,-1.40834381901946E-15));
#425=CARTESIAN_POINT('Origin',(93.6106229026981,17.4588686361338,0.));
#426=CARTESIAN_POINT('Origin',(92.1106229026981,17.4588686361338,0.));
#427=CARTESIAN_POINT('',(90.6106229026981,5.95886863613382,-1.40834381901946E-15));
#428=CARTESIAN_POINT('Origin',(90.6106229026981,17.4588686361338,0.));
#429=CARTESIAN_POINT('',(92.1106229026981,5.9588686361338,-1.40834381901946E-15));
#430=CARTESIAN_POINT('Origin',(90.6106229026981,31.7088686361338,0.));
#431=CARTESIAN_POINT('Origin',(88.6106229026981,17.4588686361338,0.));
#432=CARTESIAN_POINT('',(86.6106229026981,3.10886863613382,-1.75736815677645E-15));
#433=CARTESIAN_POINT('Origin',(86.6106229026981,17.4588686361338,0.));
#434=CARTESIAN_POINT('',(88.6106229026981,3.1088686361338,-1.75736815677645E-15));
#435=CARTESIAN_POINT('Origin',(86.6106229026981,28.9588686361338,0.));
#436=CARTESIAN_POINT('',(86.6106229026981,5.95886863613382,-1.40834381901946E-15));
#437=CARTESIAN_POINT('Origin',(86.6106229026981,17.4588686361338,0.));
#438=CARTESIAN_POINT('Origin',(80.6106229026981,17.4588686361338,0.));
#439=CARTESIAN_POINT('',(74.6106229026981,5.95886863613382,-1.40834381901946E-15));
#440=CARTESIAN_POINT('Origin',(74.6106229026981,17.4588686361338,0.));
#441=CARTESIAN_POINT('',(80.6106229026981,5.9588686361338,-1.40834381901946E-15));
#442=CARTESIAN_POINT('Origin',(74.6106229026981,27.9588686361338,0.));
#443=CARTESIAN_POINT('',(74.6106229026981,6.95886863613382,-1.28587913910472E-15));
#444=CARTESIAN_POINT('Origin',(74.6106229026981,17.4588686361338,0.));
#445=CARTESIAN_POINT('Origin',(72.1106229026981,17.4588686361338,0.));
#446=CARTESIAN_POINT('',(69.6106229026981,6.95886863613382,-1.28587913910472E-15));
#447=CARTESIAN_POINT('Origin',(69.6106229026981,17.4588686361338,0.));
#448=CARTESIAN_POINT('',(72.1106229026981,6.9588686361338,-1.28587913910472E-15));
#449=CARTESIAN_POINT('Origin',(69.6106229026981,30.6088686361338,0.));
#450=CARTESIAN_POINT('',(69.6106229026981,4.30886863613382,-1.61041054087877E-15));
#451=CARTESIAN_POINT('Origin',(69.6106229026981,17.4588686361338,0.));
#452=CARTESIAN_POINT('Origin',(71.1106229026981,17.4588686361338,0.));
#453=CARTESIAN_POINT('',(72.6106229026981,4.30886863613382,-1.61041054087877E-15));
#454=CARTESIAN_POINT('Origin',(72.6106229026981,17.4588686361338,0.));
#455=CARTESIAN_POINT('',(71.1106229026981,4.3088686361338,-1.61041054087877E-15));
#456=CARTESIAN_POINT('Origin',(72.6106229026981,29.9588686361338,0.));
#457=CARTESIAN_POINT('',(72.6106229026981,4.95886863613382,-1.53080849893419E-15));
#458=CARTESIAN_POINT('Origin',(72.6106229026981,17.4588686361338,0.));
#459=CARTESIAN_POINT('Origin',(73.1106229026981,17.4588686361338,0.));
#460=CARTESIAN_POINT('',(73.6106229026981,4.95886863613382,-1.53080849893419E-15));
#461=CARTESIAN_POINT('Origin',(73.6106229026981,17.4588686361338,0.));
#462=CARTESIAN_POINT('',(73.1106229026981,4.9588686361338,-1.53080849893419E-15));
#463=CARTESIAN_POINT('Origin',(73.6106229026981,33.4588686361338,0.));
#464=CARTESIAN_POINT('',(25.0713473073784,7.81544293048144,23.6772678123405));
#465=UNCERTAINTY_MEASURE_WITH_UNIT(LENGTH_MEASURE(0.01),#471,
'DISTANCE_ACCURACY_VALUE',
'Maximum model space distance between geometric entities at asserted c
onnectivities');
#466=UNCERTAINTY_MEASURE_WITH_UNIT(LENGTH_MEASURE(0.01),#471,
'DISTANCE_ACCURACY_VALUE',
'Maximum model space distance between geometric entities at asserted c
onnectivities');
#467=UNCERTAINTY_MEASURE_WITH_UNIT(LENGTH_MEASURE(0.01),#471,
'DISTANCE_ACCURACY_VALUE',
'Maximum model space distance between geometric entities at asserted c
onnectivities');
#468=(
GEOMETRIC_REPRESENTATION_CONTEXT(3)
GLOBAL_UNCERTAINTY_ASSIGNED_CONTEXT((#465))
GLOBAL_UNIT_ASSIGNED_CONTEXT((#471,#473,#474))
REPRESENTATION_CONTEXT('','3D')
);
#469=(
GEOMETRIC_REPRESENTATION_CONTEXT(3)
GLOBAL_UNCERTAINTY_ASSIGNED_CONTEXT((#466))
GLOBAL_UNIT_ASSIGNED_CONTEXT((#471,#473,#474))
REPRESENTATION_CONTEXT('','3D')
);
#470=(
GEOMETRIC_REPRESENTATION_CONTEXT(3)
GLOBAL_UNCERTAINTY_ASSIGNED_CONTEXT((#467))
GLOBAL_UNIT_ASSIGNED_CONTEXT((#471,#473,#474))
REPRESENTATION_CONTEXT('','3D')
);
#471=(
LENGTH_UNIT()
NAMED_UNIT(*)
SI_UNIT(.MILLI.,.METRE.)
);
#472=(
LENGTH_UNIT()
NAMED_UNIT(*)
SI_UNIT($,.METRE.)
);
#473=(
NAMED_UNIT(*)
PLANE_ANGLE_UNIT()
SI_UNIT($,.RADIAN.)
);
#474=(
NAMED_UNIT(*)
SI_UNIT($,.STERADIAN.)
SOLID_ANGLE_UNIT()
);
#475=SHAPE_DEFINITION_REPRESENTATION(#477,#480);
#476=SHAPE_DEFINITION_REPRESENTATION(#478,#481);
#477=PRODUCT_DEFINITION_SHAPE('',$,#483);
#478=PRODUCT_DEFINITION_SHAPE('',$,#484);
#479=PRODUCT_DEFINITION_SHAPE($,$,#14);
#480=SHAPE_REPRESENTATION('',(#263,#303),#468);
#481=SHAPE_REPRESENTATION('',(#264),#469);
#482=PRODUCT_DEFINITION_CONTEXT('part definition',#490,'design');
#483=PRODUCT_DEFINITION('XYIND-SEAL-SM1','XYIND-SEAL-SM1 v2',#485,#482);
#484=PRODUCT_DEFINITION('XYIND-09-02','XYIND-09-02',#486,#482);
#485=PRODUCT_DEFINITION_FORMATION('',$,#492);
#486=PRODUCT_DEFINITION_FORMATION('',$,#493);
#487=PRODUCT_RELATED_PRODUCT_CATEGORY('XYIND-SEAL-SM1 v2',
'XYIND-SEAL-SM1 v2',(#492));
#488=PRODUCT_RELATED_PRODUCT_CATEGORY('XYIND-09-02','XYIND-09-02',(#493));
#489=APPLICATION_PROTOCOL_DEFINITION('international standard',
'automotive_design',2009,#490);
#490=APPLICATION_CONTEXT(
'Core Data for Automotive Mechanical Design Process');
#491=PRODUCT_CONTEXT('part definition',#490,'mechanical');
#492=PRODUCT('XYIND-SEAL-SM1','XYIND-SEAL-SM1 v2',$,(#491));
#493=PRODUCT('XYIND-09-02','XYIND-09-02',$,(#491));
#494=PRESENTATION_STYLE_ASSIGNMENT((#496));
#495=PRESENTATION_STYLE_ASSIGNMENT((#497));
#496=SURFACE_STYLE_USAGE(.BOTH.,#498);
#497=SURFACE_STYLE_USAGE(.BOTH.,#499);
#498=SURFACE_SIDE_STYLE('',(#500));
#499=SURFACE_SIDE_STYLE('',(#501));
#500=SURFACE_STYLE_FILL_AREA(#502);
#501=SURFACE_STYLE_FILL_AREA(#503);
#502=FILL_AREA_STYLE('Steel - Satin',(#504));
#503=FILL_AREA_STYLE('Opaque(137,137,137)',(#505));
#504=FILL_AREA_STYLE_COLOUR('Steel - Satin',#506);
#505=FILL_AREA_STYLE_COLOUR('Opaque(137,137,137)',#507);
#506=COLOUR_RGB('Steel - Satin',0.627450980392157,0.627450980392157,0.627450980392157);
#507=COLOUR_RGB('Opaque(137,137,137)',0.537254901960784,0.537254901960784,
0.537254901960784);
ENDSEC;
END-ISO-10303-21;
